  0
SECTION
  2
HEADER
  9
$ACADVER
  1
AC1015
  9
$ACADMAINTVER
 70
     6
  9
$DWGCODEPAGE
  3
ANSI_1254
  9
$INSBASE
 10
0.0
 20
0.0
 30
0.0
  9
$EXTMIN
 10
0.0
 20
0.0
 30
0.0
  9
$EXTMAX
 10
279.4
 20
215.9
 30
0.0
  9
$LIMMIN
 10
0.0
 20
0.0
  9
$LIMMAX
 10
279.4
 20
215.9
  9
$ORTHOMODE
 70
     0
  9
$REGENMODE
 70
     1
  9
$FILLMODE
 70
     1
  9
$QTEXTMODE
 70
     0
  9
$MIRRTEXT
 70
     1
  9
$LTSCALE
 40
1.0
  9
$ATTMODE
 70
     1
  9
$TEXTSIZE
 40
3.5
  9
$TRACEWID
 40
1.0
  9
$TEXTSTYLE
  7
Standard
  9
$CLAYER
  8
0
  9
$CELTYPE
  6
ByLayer
  9
$CECOLOR
 62
   256
  9
$CELTSCALE
 40
1.0
  9
$DISPSILH
 70
     0
  9
$DIMSCALE
 40
1.0
  9
$DIMASZ
 40
3.5
  9
$DIMEXO
 40
1.0
  9
$DIMDLI
 40
3.75
  9
$DIMRND
 40
0.0
  9
$DIMDLE
 40
0.0
  9
$DIMEXE
 40
1.0
  9
$DIMTP
 40
0.0
  9
$DIMTM
 40
0.0
  9
$DIMTXT
 40
3.5
  9
$DIMCEN
 40
2.5
  9
$DIMTSZ
 40
0.0
  9
$DIMTOL
 70
     0
  9
$DIMLIM
 70
     0
  9
$DIMTIH
 70
     1
  9
$DIMTOH
 70
     1
  9
$DIMSE1
 70
     0
  9
$DIMSE2
 70
     0
  9
$DIMTAD
 70
     1
  9
$DIMZIN
 70
     0
  9
$DIMBLK
  1

  9
$DIMASO
 70
     1
  9
$DIMSHO
 70
     1
  9
$DIMPOST
  1

  9
$DIMAPOST
  1

  9
$DIMALT
 70
     0
  9
$DIMALTD
 70
     3
  9
$DIMALTF
 40
0.0393700787
  9
$DIMLFAC
 40
1.0
  9
$DIMTOFL
 70
     1
  9
$DIMTVP
 40
0.0
  9
$DIMTIX
 70
     0
  9
$DIMSOXD
 70
     0
  9
$DIMSAH
 70
     0
  9
$DIMBLK1
  1

  9
$DIMBLK2
  1

  9
$DIMSTYLE
  2
ISO-25
  9
$DIMCLRD
 70
     0
  9
$DIMCLRE
 70
     0
  9
$DIMCLRT
 70
     0
  9
$DIMTFAC
 40
1.0
  9
$DIMGAP
 40
1.524
  9
$DIMJUST
 70
     0
  9
$DIMSD1
 70
     0
  9
$DIMSD2
 70
     0
  9
$DIMTOLJ
 70
     0
  9
$DIMTZIN
 70
     0
  9
$DIMALTZ
 70
     0
  9
$DIMALTTZ
 70
     0
  9
$DIMUPT
 70
     0
  9
$DIMDEC
 70
     2
  9
$DIMTDEC
 70
     2
  9
$DIMALTU
 70
     2
  9
$DIMALTTD
 70
     3
  9
$DIMTXSTY
  7
Standard
  9
$DIMAUNIT
 70
     0
  9
$DIMADEC
 70
     2
  9
$DIMALTRND
 40
0.0
  9
$DIMAZIN
 70
     0
  9
$DIMDSEP
 70
    44
  9
$DIMATFIT
 70
     3
  9
$DIMFRAC
 70
     0
  9
$DIMLDRBLK
  1

  9
$DIMLUNIT
 70
     2
  9
$DIMLWD
 70
    -2
  9
$DIMLWE
 70
    -2
  9
$DIMTMOVE
 70
     0
  9
$LUNITS
 70
     2
  9
$LUPREC
 70
     2
  9
$SKETCHINC
 40
1.0
  9
$FILLETRAD
 40
10.0
  9
$AUNITS
 70
     0
  9
$AUPREC
 70
     2
  9
$MENU
  1
.
  9
$ELEVATION
 40
0.0
  9
$PELEVATION
 40
0.0
  9
$THICKNESS
 40
0.0
  9
$LIMCHECK
 70
     0
  9
$CHAMFERA
 40
0.0
  9
$CHAMFERB
 40
0.0
  9
$CHAMFERC
 40
0.0
  9
$CHAMFERD
 40
0.0
  9
$SKPOLY
 70
     0
  9
$TDCREATE
 40
2459935.700490394
  9
$TDUCREATE
 40
2459935.575490394
  9
$TDUPDATE
 40
2459935.700490567
  9
$TDUUPDATE
 40
2459935.575490567
  9
$TDINDWG
 40
0.0000000116
  9
$TDUSRTIMER
 40
0.0000000116
  9
$USRTIMER
 70
     1
  9
$ANGBASE
 50
0.0
  9
$ANGDIR
 70
     0
  9
$PDMODE
 70
     0
  9
$PDSIZE
 40
-1.0
  9
$PLINEWID
 40
0.0
  9
$SPLFRAME
 70
     0
  9
$SPLINETYPE
 70
     6
  9
$SPLINESEGS
 70
     8
  9
$HANDSEED
  5
D2
  9
$SURFTAB1
 70
     6
  9
$SURFTAB2
 70
     6
  9
$SURFTYPE
 70
     6
  9
$SURFU
 70
     6
  9
$SURFV
 70
     6
  9
$UCSBASE
  2

  9
$UCSNAME
  2

  9
$UCSORG
 10
0.0
 20
0.0
 30
0.0
  9
$UCSXDIR
 10
1.0
 20
0.0
 30
0.0
  9
$UCSYDIR
 10
0.0
 20
1.0
 30
0.0
  9
$UCSORTHOREF
  2

  9
$UCSORTHOVIEW
 70
     0
  9
$UCSORGTOP
 10
0.0
 20
0.0
 30
0.0
  9
$UCSORGBOTTOM
 10
0.0
 20
0.0
 30
0.0
  9
$UCSORGLEFT
 10
0.0
 20
0.0
 30
0.0
  9
$UCSORGRIGHT
 10
0.0
 20
0.0
 30
0.0
  9
$UCSORGFRONT
 10
0.0
 20
0.0
 30
0.0
  9
$UCSORGBACK
 10
0.0
 20
0.0
 30
0.0
  9
$PUCSBASE
  2

  9
$PUCSNAME
  2

  9
$PUCSORG
 10
0.0
 20
0.0
 30
0.0
  9
$PUCSXDIR
 10
1.0
 20
0.0
 30
0.0
  9
$PUCSYDIR
 10
0.0
 20
1.0
 30
0.0
  9
$PUCSORTHOREF
  2

  9
$PUCSORTHOVIEW
 70
     0
  9
$PUCSORGTOP
 10
0.0
 20
0.0
 30
0.0
  9
$PUCSORGBOTTOM
 10
0.0
 20
0.0
 30
0.0
  9
$PUCSORGLEFT
 10
0.0
 20
0.0
 30
0.0
  9
$PUCSORGRIGHT
 10
0.0
 20
0.0
 30
0.0
  9
$PUCSORGFRONT
 10
0.0
 20
0.0
 30
0.0
  9
$PUCSORGBACK
 10
0.0
 20
0.0
 30
0.0
  9
$USERI1
 70
     0
  9
$USERI2
 70
     0
  9
$USERI3
 70
     0
  9
$USERI4
 70
     0
  9
$USERI5
 70
     0
  9
$USERR1
 40
0.0
  9
$USERR2
 40
0.0
  9
$USERR3
 40
0.0
  9
$USERR4
 40
0.0
  9
$USERR5
 40
0.0
  9
$WORLDVIEW
 70
     1
  9
$SHADEDGE
 70
     3
  9
$SHADEDIF
 70
    70
  9
$TILEMODE
 70
     1
  9
$MAXACTVP
 70
    64
  9
$PINSBASE
 10
0.0
 20
0.0
 30
0.0
  9
$PLIMCHECK
 70
     0
  9
$PEXTMIN
 10
1.0000000000E+20
 20
1.0000000000E+20
 30
1.0000000000E+20
  9
$PEXTMAX
 10
-1.0000000000E+20
 20
-1.0000000000E+20
 30
-1.0000000000E+20
  9
$PLIMMIN
 10
0.0
 20
0.0
  9
$PLIMMAX
 10
420.0
 20
297.0
  9
$UNITMODE
 70
     0
  9
$VISRETAIN
 70
     1
  9
$PLINEGEN
 70
     0
  9
$PSLTSCALE
 70
     1
  9
$TREEDEPTH
 70
  3020
  9
$CMLSTYLE
  2
Standard
  9
$CMLJUST
 70
     0
  9
$CMLSCALE
 40
20.0
  9
$PROXYGRAPHICS
 70
     1
  9
$MEASUREMENT
 70
     1
  9
$CELWEIGHT
370
    -1
  9
$ENDCAPS
280
     0
  9
$JOINSTYLE
280
     0
  9
$LWDISPLAY
290
     1
  9
$INSUNITS
 70
     4
  9
$HYPERLINKBASE
  1

  9
$STYLESHEET
  1

  9
$XEDIT
290
     1
  9
$CEPSNTYPE
380
     0
  9
$PSTYLEMODE
290
     1
  9
$FINGERPRINTGUID
  2
{74a920ed-1e53-4232-9ed0-919cc189e138}
  9
$VERSIONGUID
  2
{FAEB1C32-E019-11D5-929B-00C0DF256EC4}
  9
$EXTNAMES
290
     1
  9
$PSVPSCALE
 40
0.0
  9
$OLESTARTUP
290
     0
  0
ENDSEC
  0
SECTION
  2
CLASSES
  0
CLASS
  1
ACDBDICTIONARYWDFLT
  2
AcDbDictionaryWithDefault
  3
ObjectDBX Classes
 90
        0
280
     0
281
     0
  0
CLASS
  1
VISUALSTYLE
  2
AcDbVisualStyle
  3
ObjectDBX Classes
 90
     4095
280
     0
281
     0
  0
CLASS
  1
MATERIAL
  2
AcDbMaterial
  3
ObjectDBX Classes
 90
     1153
280
     0
281
     0
  0
CLASS
  1
SCALE
  2
AcDbScale
  3
ObjectDBX Classes
 90
     1153
280
     0
281
     0
  0
CLASS
  1
TABLESTYLE
  2
AcDbTableStyle
  3
ObjectDBX Classes
 90
     4095
280
     0
281
     0
  0
CLASS
  1
MLEADERSTYLE
  2
AcDbMLeaderStyle
  3
ACDB_MLEADERSTYLE_CLASS
 90
     4095
280
     0
281
     0
  0
CLASS
  1
SUN
  2
AcDbSun
  3
SCENEOE
 90
     1153
280
     0
281
     0
  0
CLASS
  1
ACDBPLACEHOLDER
  2
AcDbPlaceHolder
  3
ObjectDBX Classes
 90
        0
280
     0
281
     0
  0
CLASS
  1
LAYOUT
  2
AcDbLayout
  3
ObjectDBX Classes
 90
        0
280
     0
281
     0
  0
ENDSEC
  0
SECTION
  2
TABLES
  0
TABLE
  2
VPORT
  5
8
330
0
100
AcDbSymbolTable
 70
     1
  0
VPORT
  5
29
330
8
100
AcDbSymbolTableRecord
100
AcDbViewportTableRecord
  2
*Active
 70
     0
 10
0.0
 20
0.0
 11
1.0
 21
1.0
 12
139.7
 22
107.95
 13
0.0
 23
0.0
 14
10.0
 24
10.0
 15
10.0
 25
10.0
 16
0.0
 26
0.0
 36
1.0
 17
0.0
 27
0.0
 37
0.0
 40
215.9
 41
1.2941176471
 42
50.0
 43
0.0
 44
0.0
 50
0.0
 51
0.0
 71
     0
 72
  2000
 73
     1
 74
     3
 75
     0
 76
     0
 77
     0
 78
     0
281
     0
 65
     1
110
0.0
120
0.0
130
0.0
111
1.0
121
0.0
131
0.0
112
0.0
122
1.0
132
0.0
 79
     0
146
0.0
  0
ENDTAB
  0
TABLE
  2
LTYPE
  5
5
330
0
100
AcDbSymbolTable
 70
     6
  0
LTYPE
  5
14
330
5
100
AcDbSymbolTableRecord
100
AcDbLinetypeTableRecord
  2
ByBlock
 70
     0
  3

 72
    65
 73
     0
 40
0.0
  0
LTYPE
  5
15
330
5
100
AcDbSymbolTableRecord
100
AcDbLinetypeTableRecord
  2
ByLayer
 70
     0
  3

 72
    65
 73
     0
 40
0.0
  0
LTYPE
  5
16
330
5
100
AcDbSymbolTableRecord
100
AcDbLinetypeTableRecord
  2
Continuous
 70
     0
  3
Solid line
 72
    65
 73
     0
 40
0.0
  0
LTYPE
  5
6E
330
5
100
AcDbSymbolTableRecord
100
AcDbLinetypeTableRecord
  2
HIDDEN
 70
     0
  3
Hidden __ __ __ __ __ __ __ __ __ __ __ __ __ __
 72
    65
 73
     2
 40
1.905
 49
1.27
 74
     0
 49
-0.635
 74
     0
  0
LTYPE
  5
6F
330
5
100
AcDbSymbolTableRecord
100
AcDbLinetypeTableRecord
  2
PHANTOM
 70
     0
  3
Phantom ______  __  __  ______  __  __  ______
 72
    65
 73
     6
 40
12.7
 49
6.35
 74
     0
 49
-1.27
 74
     0
 49
1.27
 74
     0
 49
-1.27
 74
     0
 49
1.27
 74
     0
 49
-1.27
 74
     0
  0
LTYPE
  5
70
330
5
100
AcDbSymbolTableRecord
100
AcDbLinetypeTableRecord
  2
CENTER
 70
     0
  3
Center ____ _ ____ _ ____ _ ____ _ ____ _ ____
 72
    65
 73
     4
 40
10.16
 49
6.35
 74
     0
 49
-1.27
 74
     0
 49
1.27
 74
     0
 49
-1.27
 74
     0
  0
LTYPE
  5
71
330
5
100
AcDbSymbolTableRecord
100
AcDbLinetypeTableRecord
  2
CENTERX2
 70
     0
  3
Center (2x) ________  __  ________  __  _____
 72
    65
 73
     4
 40
20.32
 49
12.7
 74
     0
 49
-2.54
 74
     0
 49
2.54
 74
     0
 49
-2.54
 74
     0
  0
LTYPE
  5
72
330
5
100
AcDbSymbolTableRecord
100
AcDbLinetypeTableRecord
  2
DOT2
 70
     0
  3
Dot (.5x) ........................................
 72
    65
 73
     2
 40
0.635
 49
0.0
 74
     0
 49
-0.635
 74
     0
  0
ENDTAB
  0
TABLE
  2
LAYER
  5
2
330
0
100
AcDbSymbolTable
 70
    17
  0
LAYER
  5
10
330
2
100
AcDbSymbolTableRecord
100
AcDbLayerTableRecord
  2
0
 70
     0
 62
     7
  6
Continuous
370
    -3
390
F
  0
LAYER
  5
73
330
2
100
AcDbSymbolTableRecord
100
AcDbLayerTableRecord
  2
FORMAT
 70
     0
 62
     7
  6
Continuous
370
    -3
390
F
  0
LAYER
  5
74
330
2
100
AcDbSymbolTableRecord
100
AcDbLayerTableRecord
  2
YARDIMCI_GEOMETRI
 70
     0
 62
    -6
  6
Continuous
290
     0
370
    -3
390
F
  0
LAYER
  5
75
330
2
100
AcDbSymbolTableRecord
100
AcDbLayerTableRecord
  2
SAYFA_CERCEVESI
 70
     0
 62
     7
  6
Continuous
370
    25
390
F
  0
LAYER
  5
76
330
2
100
AcDbSymbolTableRecord
100
AcDbLayerTableRecord
  2
ANTET
 70
     0
 62
     7
  6
Continuous
370
    -3
390
F
  0
LAYER
  5
77
330
2
100
AcDbSymbolTableRecord
100
AcDbLayerTableRecord
  2
OLCU
 70
     0
 62
   150
  6
Continuous
370
    -3
390
F
  0
LAYER
  5
78
330
2
100
AcDbSymbolTableRecord
100
AcDbLayerTableRecord
  2
METIN
 70
     0
 62
    96
  6
Continuous
370
    -3
390
F
  0
LAYER
  5
79
330
2
100
AcDbSymbolTableRecord
100
AcDbLayerTableRecord
  2
BALON
 70
     0
 62
     5
  6
Continuous
370
    -3
390
F
  0
LAYER
  5
7A
330
2
100
AcDbSymbolTableRecord
100
AcDbLayerTableRecord
  2
VURGU
 70
     0
 62
     7
  6
Continuous
370
    -3
390
F
  0
LAYER
  5
7B
330
2
100
AcDbSymbolTableRecord
100
AcDbLayerTableRecord
  2
SILIK
 70
     0
 62
     7
  6
Continuous
370
    -3
390
F
  0
LAYER
  5
7C
330
2
100
AcDbSymbolTableRecord
100
AcDbLayerTableRecord
  2
MODEL
 70
     0
 62
     7
  6
Continuous
370
    -3
390
F
  0
LAYER
  5
7D
330
2
100
AcDbSymbolTableRecord
100
AcDbLayerTableRecord
  2
DETAYLANDıRMA
 70
     0
 62
   190
  6
Continuous
370
    -3
390
F
  0
LAYER
  5
7E
330
2
100
AcDbSymbolTableRecord
100
AcDbLayerTableRecord
  2
TOLERANS
 70
     0
 62
   230
  6
Continuous
370
    -3
390
F
  0
LAYER
  5
7F
330
2
100
AcDbSymbolTableRecord
100
AcDbLayerTableRecord
  2
MERKEZ_CIZGILERI
 70
     0
 62
    30
  6
Continuous
370
    -3
390
F
  0
LAYER
  5
80
330
2
100
AcDbSymbolTableRecord
100
AcDbLayerTableRecord
  2
KESIT-DETAY_CIZGILERI
 70
     0
 62
     7
  6
Continuous
370
    -3
390
F
  0
LAYER
  5
81
330
2
100
AcDbSymbolTableRecord
100
AcDbLayerTableRecord
  2
\U+041E\U+0421\U+0415\U+0412\U+042B\U+0415
 70
     0
 62
     7
  6
Continuous
370
    -3
390
F
  0
LAYER
  5
82
330
2
100
AcDbSymbolTableRecord
100
AcDbLayerTableRecord
  2
\U+0412\U+041E\U+0414\U+042F\U+041D\U+042B\U+0415_\U+0417\U+041D\U+0410\U+041A\U+0418
 70
     0
 62
    11
  6
Continuous
370
    -3
390
F
  0
ENDTAB
  0
TABLE
  2
STYLE
  5
3
330
0
100
AcDbSymbolTable
 70
     1
  0
STYLE
  5
11
330
3
100
AcDbSymbolTableRecord
100
AcDbTextStyleTableRecord
  2
Standard
 70
     0
 40
0.0
 41
1.0
 50
0.0
 71
     0
 42
3.5
  3
txt
  4

  0
ENDTAB
  0
TABLE
  2
VIEW
  5
6
330
0
100
AcDbSymbolTable
 70
     0
  0
ENDTAB
  0
TABLE
  2
UCS
  5
7
330
0
100
AcDbSymbolTable
 70
     0
  0
ENDTAB
  0
TABLE
  2
APPID
  5
9
330
0
100
AcDbSymbolTable
 70
     1
  0
APPID
  5
12
330
9
100
AcDbSymbolTableRecord
100
AcDbRegAppTableRecord
  2
ACAD
 70
     0
  0
ENDTAB
  0
TABLE
  2
DIMSTYLE
  5
A
330
0
100
AcDbSymbolTable
 70
     1
100
AcDbDimStyleTable
  0
DIMSTYLE
105
27
330
A
100
AcDbSymbolTableRecord
100
AcDbDimStyleTableRecord
  2
ISO-25
 70
     0
 41
2.5
 42
0.625
 43
3.75
 44
1.25
 73
     0
 74
     0
 77
     1
 78
     8
140
2.5
141
2.5
143
0.0393700787
147
0.625
171
     3
172
     1
178
     0
271
     2
272
     2
274
     3
278
    44
283
     0
284
     8
340
11
  0
ENDTAB
  0
TABLE
  2
BLOCK_RECORD
  5
1
330
0
100
AcDbSymbolTable
 70
     3
  0
BLOCK_RECORD
  5
1F
330
1
100
AcDbSymbolTableRecord
100
AcDbBlockTableRecord
  2
*Model_Space
340
22
  0
BLOCK_RECORD
  5
1B
330
1
100
AcDbSymbolTableRecord
100
AcDbBlockTableRecord
  2
*Paper_Space
340
1E
  0
BLOCK_RECORD
  5
23
330
1
100
AcDbSymbolTableRecord
100
AcDbBlockTableRecord
  2
*Paper_Space0
340
26
  0
BLOCK_RECORD
  5
88
330
1
100
AcDbSymbolTableRecord
100
AcDbBlockTableRecord
  2
SW_CENTERMARKSYMBOL_0
340
0
102
{BLKREFS
331
93
102
}
  0
BLOCK_RECORD
  5
BB
330
1
100
AcDbSymbolTableRecord
100
AcDbBlockTableRecord
  2
SW_CENTERMARKSYMBOL_1
340
0
102
{BLKREFS
331
C6
102
}
  0
ENDTAB
  0
ENDSEC
  0
SECTION
  2
BLOCKS
  0
BLOCK
  5
20
330
1F
100
AcDbEntity
  8
0
100
AcDbBlockBegin
  2
*Model_Space
 70
     0
 10
0.0
 20
0.0
 30
0.0
  3
*Model_Space
  1

  0
ENDBLK
  5
21
330
1F
100
AcDbEntity
  8
0
100
AcDbBlockEnd
  0
BLOCK
  5
1C
330
1B
100
AcDbEntity
 67
     1
  8
0
100
AcDbBlockBegin
  2
*Paper_Space
 70
     0
 10
0.0
 20
0.0
 30
0.0
  3
*Paper_Space
  1

  0
ENDBLK
  5
1D
330
1B
100
AcDbEntity
 67
     1
  8
0
100
AcDbBlockEnd
  0
BLOCK
  5
24
330
23
100
AcDbEntity
  8
0
100
AcDbBlockBegin
  2
*Paper_Space0
 70
     0
 10
0.0
 20
0.0
 30
0.0
  3
*Paper_Space0
  1

  0
ENDBLK
  5
25
330
23
100
AcDbEntity
  8
0
100
AcDbBlockEnd
  0
BLOCK
  5
89
330
88
100
AcDbEntity
  8
0
100
AcDbBlockBegin
  2
SW_CENTERMARKSYMBOL_0
 70
     0
 10
0.0
 20
0.0
 30
0.0
  3
SW_CENTERMARKSYMBOL_0
  1

  0
LINE
  5
8B
330
88
100
AcDbEntity
  8
FORMAT
 62
     0
100
AcDbLine
 10
0.0
 20
0.0
 30
0.0
 11
0.0
 21
2.5
 31
0.0
  0
LINE
  5
8C
330
88
100
AcDbEntity
  8
FORMAT
 62
     0
100
AcDbLine
 10
0.0
 20
0.0
 30
0.0
 11
-2.5
 21
0.0
 31
0.0
  0
LINE
  5
8D
330
88
100
AcDbEntity
  8
FORMAT
 62
     0
100
AcDbLine
 10
0.0
 20
0.0
 30
0.0
 11
0.0
 21
-2.5
 31
0.0
  0
LINE
  5
8E
330
88
100
AcDbEntity
  8
FORMAT
 62
     0
100
AcDbLine
 10
0.0
 20
0.0
 30
0.0
 11
2.5
 21
0.0
 31
0.0
  0
LINE
  5
8F
330
88
100
AcDbEntity
  8
FORMAT
 62
     0
100
AcDbLine
 10
0.0
 20
5.0
 30
0.0
 11
0.0
 21
40.0
 31
0.0
  0
LINE
  5
90
330
88
100
AcDbEntity
  8
FORMAT
 62
     0
100
AcDbLine
 10
-5.0
 20
0.0
 30
0.0
 11
-40.0
 21
0.0
 31
0.0
  0
LINE
  5
91
330
88
100
AcDbEntity
  8
FORMAT
 62
     0
100
AcDbLine
 10
0.0
 20
-5.0
 30
0.0
 11
0.0
 21
-40.0
 31
0.0
  0
LINE
  5
92
330
88
100
AcDbEntity
  8
FORMAT
 62
     0
100
AcDbLine
 10
5.0
 20
0.0
 30
0.0
 11
40.0
 21
0.0
 31
0.0
  0
ENDBLK
  5
8A
330
88
100
AcDbEntity
  8
0
100
AcDbBlockEnd
  0
BLOCK
  5
BC
330
BB
100
AcDbEntity
  8
0
100
AcDbBlockBegin
  2
SW_CENTERMARKSYMBOL_1
 70
     0
 10
0.0
 20
0.0
 30
0.0
  3
SW_CENTERMARKSYMBOL_1
  1

  0
LINE
  5
BE
330
BB
100
AcDbEntity
  8
FORMAT
 62
     0
100
AcDbLine
 10
0.0
 20
0.0
 30
0.0
 11
0.0
 21
2.5
 31
0.0
  0
LINE
  5
BF
330
BB
100
AcDbEntity
  8
FORMAT
 62
     0
100
AcDbLine
 10
0.0
 20
0.0
 30
0.0
 11
-2.5
 21
0.0
 31
0.0
  0
LINE
  5
C0
330
BB
100
AcDbEntity
  8
FORMAT
 62
     0
100
AcDbLine
 10
0.0
 20
0.0
 30
0.0
 11
0.0
 21
-2.5
 31
0.0
  0
LINE
  5
C1
330
BB
100
AcDbEntity
  8
FORMAT
 62
     0
100
AcDbLine
 10
0.0
 20
0.0
 30
0.0
 11
2.5
 21
0.0
 31
0.0
  0
LINE
  5
C2
330
BB
100
AcDbEntity
  8
FORMAT
 62
     0
100
AcDbLine
 10
0.0
 20
5.0
 30
0.0
 11
0.0
 21
40.0
 31
0.0
  0
LINE
  5
C3
330
BB
100
AcDbEntity
  8
FORMAT
 62
     0
100
AcDbLine
 10
-5.0
 20
0.0
 30
0.0
 11
-40.0
 21
0.0
 31
0.0
  0
LINE
  5
C4
330
BB
100
AcDbEntity
  8
FORMAT
 62
     0
100
AcDbLine
 10
0.0
 20
-5.0
 30
0.0
 11
0.0
 21
-40.0
 31
0.0
  0
LINE
  5
C5
330
BB
100
AcDbEntity
  8
FORMAT
 62
     0
100
AcDbLine
 10
5.0
 20
0.0
 30
0.0
 11
40.0
 21
0.0
 31
0.0
  0
ENDBLK
  5
BD
330
BB
100
AcDbEntity
  8
0
100
AcDbBlockEnd
  0
ENDSEC
  0
SECTION
  2
ENTITIES
  0
LINE
  5
83
330
1F
100
AcDbEntity
  8
0
  6
Continuous
 62
     7
370
    25
100
AcDbLine
 10
107.2049325648
 20
70.1670163062
 30
0.0
 11
237.2049325648
 21
70.1670163062
 31
0.0
  0
LINE
  5
84
330
1F
100
AcDbEntity
  8
0
  6
Continuous
 62
     7
370
    25
100
AcDbLine
 10
237.2049325648
 20
145.1670163062
 30
0.0
 11
107.2049325648
 21
145.1670163062
 31
0.0
  0
CIRCLE
  5
85
330
1F
100
AcDbEntity
  8
0
  6
Continuous
 62
     7
370
    25
100
AcDbCircle
 10
107.2049325648
 20
107.6670163062
 30
0.0
 40
32.99999999999999
  0
CIRCLE
  5
86
330
1F
100
AcDbEntity
  8
0
  6
Continuous
 62
     7
370
    25
100
AcDbCircle
 10
107.2049325648
 20
107.6670163062
 30
0.0
 40
37.50000000000001
  0
LINE
  5
87
330
1F
100
AcDbEntity
  8
0
  6
Continuous
 62
     7
370
    25
100
AcDbLine
 10
237.2049325648
 20
145.1670163062
 30
0.0
 11
237.2049325648
 21
70.1670163062
 31
0.0
  0
INSERT
  5
93
330
1F
100
AcDbEntity
  8
FORMAT
100
AcDbBlockReference
  2
SW_CENTERMARKSYMBOL_0
 10
107.2049325648
 20
107.6670163062
 30
0.0
  0
LINE
  5
94
330
1F
100
AcDbEntity
  8
0
  6
Continuous
 62
     7
370
    25
100
AcDbLine
 10
144.7049325648
 20
394.1357836921
 30
0.0
 11
144.7049325648
 21
487.1357836921
 31
0.0
  0
LINE
  5
95
330
1F
100
AcDbEntity
  8
0
  6
Continuous
 62
     7
370
    25
100
AcDbLine
 10
144.7049325648
 20
226.1357836921
 30
0.0
 11
144.7049325648
 21
319.1357836921
 31
0.0
  0
LINE
  5
96
330
1F
100
AcDbEntity
  8
0
  6
Continuous
 62
     7
370
    25
100
AcDbLine
 10
69.7049325648
 20
487.1357836921
 30
0.0
 11
69.7049325648
 21
226.1357836921
 31
0.0
  0
LINE
  5
97
330
1F
100
AcDbEntity
  8
0
  6
Continuous
 62
     7
370
    25
100
AcDbLine
 10
144.7049325648
 20
319.1357836921
 30
0.0
 11
237.2049325648
 21
319.1357836921
 31
0.0
  0
LINE
  5
98
330
1F
100
AcDbEntity
  8
0
  6
Continuous
 62
     7
370
    25
100
AcDbLine
 10
237.2049325648
 20
394.1357836921
 30
0.0
 11
144.7049325648
 21
394.1357836921
 31
0.0
  0
LINE
  5
99
330
1F
100
AcDbEntity
  8
0
  6
Continuous
 62
     7
370
    25
100
AcDbLine
 10
144.7049325648
 20
394.1357836921
 30
0.0
 11
107.2049325648
 21
356.6357836921
 31
0.0
  0
LINE
  5
9A
330
1F
100
AcDbEntity
  8
0
  6
Continuous
 62
     7
370
    25
100
AcDbLine
 10
107.2049325648
 20
356.6357836921
 30
0.0
 11
144.7049325648
 21
319.1357836921
 31
0.0
  0
LINE
  5
9B
330
1F
100
AcDbEntity
  8
0
  6
Continuous
 62
     7
370
    25
100
AcDbLine
 10
69.7049325648
 20
487.1357836921
 30
0.0
 11
144.7049325648
 21
487.1357836921
 31
0.0
  0
LINE
  5
9C
330
1F
100
AcDbEntity
  8
0
  6
Continuous
 62
     7
370
    25
100
AcDbLine
 10
69.7049325648
 20
226.1357836921
 30
0.0
 11
144.7049325648
 21
226.1357836921
 31
0.0
  0
LINE
  5
9D
330
1F
100
AcDbEntity
  8
0
  6
Continuous
 62
     7
370
    25
100
AcDbLine
 10
237.2049325648
 20
394.1357836921
 30
0.0
 11
237.2049325648
 21
319.1357836921
 31
0.0
  0
LINE
  5
9E
330
1F
100
AcDbEntity
  8
0
  6
Continuous
 62
     7
370
    25
100
AcDbLine
 10
443.8026381805
 20
70.1670163062
 30
0.0
 11
574.3026381805
 21
70.1670163062
 31
0.0
  0
LINE
  5
9F
330
1F
100
AcDbEntity
  8
0
  6
Continuous
 62
     7
370
    25
100
AcDbLine
 10
313.3026381805
 20
70.1670163062
 30
0.0
 11
443.8026381805
 21
70.1670163062
 31
0.0
  0
LINE
  5
A0
330
1F
100
AcDbEntity
  8
0
  6
Continuous
 62
     7
370
    25
100
AcDbLine
 10
443.8026381805
 20
145.1670163062
 30
0.0
 11
313.3026381805
 21
145.1670163062
 31
0.0
  0
LINE
  5
A1
330
1F
100
AcDbEntity
  8
0
  6
Continuous
 62
     7
370
    25
100
AcDbLine
 10
574.3026381805
 20
145.1670163062
 30
0.0
 11
443.8026381805
 21
145.1670163062
 31
0.0
  0
LINE
  5
A2
330
1F
100
AcDbEntity
  8
0
  6
Continuous
 62
     7
370
    25
100
AcDbLine
 10
574.3026381805
 20
145.1670163062
 30
0.0
 11
574.3026381805
 21
70.1670163062
 31
0.0
  0
LINE
  5
A3
330
1F
100
AcDbEntity
  8
0
  6
Continuous
 62
     7
370
    25
100
AcDbLine
 10
313.3026381805
 20
145.1670163062
 30
0.0
 11
313.3026381805
 21
70.1670163062
 31
0.0
  0
LINE
  5
A4
330
1F
100
AcDbEntity
  8
0
  6
Continuous
 62
     7
370
    25
100
AcDbLine
 10
420.62139591
 20
-85.5760212294
 30
0.0
 11
347.092437202
 21
-43.1286568848
 31
0.0
  0
LINE
  5
A5
330
1F
100
AcDbEntity
  8
0
  6
Continuous
 62
     7
370
    25
100
AcDbLine
 10
531.6473070917
 20
-149.6699154777
 30
0.0
 11
495.6274914576
 21
-128.8761185205
 31
0.0
  0
LINE
  5
A6
330
1F
100
AcDbEntity
  8
0
  6
Continuous
 62
     7
370
    25
100
AcDbLine
 10
309.5954847282
 20
-108.0823215634
 30
0.0
 11
494.1503546179
 21
-214.6235801562
 31
0.0
  0
LINE
  5
A7
330
1F
100
AcDbEntity
  8
0
  6
Continuous
 62
     7
370
    25
100
AcDbLine
 10
458.1183483838
 20
-150.5296859079
 30
0.0
 11
531.2937537011
 21
-108.2864235913
 31
0.0
  0
LINE
  5
A8
330
1F
100
AcDbEntity
  8
0
  6
Continuous
 62
     7
370
    25
100
AcDbLine
 10
493.7968012273
 20
-43.3327589128
 30
0.0
 11
420.62139591
 21
-85.5760212294
 31
0.0
  0
LINE
  5
A9
330
1F
100
AcDbEntity
  8
0
  6
Continuous
 62
     7
370
    25
100
AcDbLine
 10
420.62139591
 20
-85.5760212294
 30
0.0
 11
420.62139591
 21
-159.4963989662
 31
0.0
  0
ELLIPSE
  5
AA
330
1F
100
AcDbEntity
  8
0
  6
Continuous
 62
     7
370
    25
100
AcDbEllipse
 10
420.62139591
 20
-128.8761185205
 30
0.0
 11
53.03300858899114
 21
8.526512829121202E-14
 31
0.0
210
0.0
220
0.0
230
1.0
 40
0.5773815452
 41
4.712388980384698
 42
5.497705879720051
  0
LWPOLYLINE
  5
AB
330
1F
100
AcDbEntity
  8
0
  6
Continuous
 62
     7
370
    25
100
AcDbPolyline
 90
       83
 70
   128
 43
0.0
 10
354.8604652596
 20
-60.2978371274
 10
354.7826605641
 20
-57.9987932323
 10
354.5497030665
 20
-55.8030724303
 10
354.1629598539
 20
-53.7235600841
 10
353.6247004894
 20
-51.7724595991
 10
352.9380836929
 20
-49.9612208087
 10
352.1071388049
 20
-48.3004727823
 10
351.1367421402
 20
-46.7999614498
 10
350.0325883725
 20
-45.4684924083
 10
348.801157115
 20
-44.3138792475
 10
347.4496748961
 20
-43.3428976967
 10
345.9860727508
 20
-42.5612458616
 10
344.4189396785
 20
-41.973510786
 10
342.7574722391
 20
-41.583141533
 10
341.0114205843
 20
-41.3924289447
 10
339.1910312394
 20
-41.4024921984
 10
337.3069869731
 20
-41.6132722388
 10
335.3703441061
 20
-42.0235321249
 10
333.3924676289
 20
-42.6308642885
 10
331.3849645072
 20
-43.431704663
 10
329.3596155675
 20
-44.4213535987
 10
327.3283063627
 20
-45.5940034421
 10
325.302957423
 20
-46.9427726176
 10
323.2954543013
 20
-48.4597460113
 10
321.3175778242
 20
-50.1360214202
 10
319.3809349572
 20
-51.9617617938
 10
317.4968906908
 20
-53.9262529613
 10
315.676501346
 20
-56.0179665077
 10
313.9304496912
 20
-58.224627426
 10
312.2689822518
 20
-60.5332861525
 10
310.7018491794
 20
-62.9303945598
 10
309.2382470341
 20
-65.4018854627
 10
307.8867648152
 20
-67.9332551697
 10
306.6553335578
 20
-70.5096485968
 10
305.55117979
 20
-73.1159464431
 10
304.5807831254
 20
-75.7368539163
 10
303.7498382373
 20
-78.3569904892
 10
303.0632214408
 20
-80.9609801587
 10
302.5249620763
 20
-83.5335416778
 10
302.1382188638
 20
-86.0595782327
 10
301.9052613661
 20
-88.5242660364
 10
301.8274566706
 20
-90.9131413208
 10
301.9052613661
 20
-93.2121852159
 10
302.1382188638
 20
-95.4079060179
 10
302.5249620763
 20
-97.4874183641
 10
303.0632214408
 20
-99.4385188491
 10
303.7498382373
 20
-101.2497576395
 10
304.5807831254
 20
-102.9105056659
 10
305.55117979
 20
-104.4110169984
 10
306.6553335578
 20
-105.7424860399
 10
307.8867648152
 20
-106.8970992007
 10
309.2382470341
 20
-107.8680807515
 10
310.7018491794
 20
-108.6497325866
 10
312.2689822518
 20
-109.2374676622
 10
313.9304496912
 20
-109.6278369152
 10
315.676501346
 20
-109.8185495035
 10
317.4968906908
 20
-109.8084862498
 10
319.3809349572
 20
-109.5977062094
 10
321.3175778242
 20
-109.1874463233
 10
323.2954543013
 20
-108.5801141597
 10
325.302957423
 20
-107.7792737852
 10
327.3283063627
 20
-106.7896248495
 10
329.3596155675
 20
-105.6169750061
 10
331.3849645072
 20
-104.2682058306
 10
333.3924676289
 20
-102.7512324369
 10
335.3703441061
 20
-101.074957028
 10
337.3069869731
 20
-99.2492166544
 10
339.1910312394
 20
-97.2847254869
 10
341.0114205843
 20
-95.1930119405
 10
342.7574722391
 20
-92.9863510222
 10
344.4189396785
 20
-90.6776922957
 10
345.9860727508
 20
-88.2805838884
 10
347.4496748961
 20
-85.8090929855
 10
348.801157115
 20
-83.2777232785
 10
350.0325883725
 20
-80.7013298514
 10
351.1367421402
 20
-78.0950320051
 10
352.1071388049
 20
-75.4741245319
 10
352.9380836929
 20
-72.853987959
 10
353.6247004894
 20
-70.2499982895
 10
354.1629598539
 20
-67.6774367704
 10
354.5497030665
 20
-65.1514002155
 10
354.7826605641
 20
-62.6867124118
 10
354.8604652596
 20
-60.2978371274
  0
LWPOLYLINE
  5
AC
330
1F
100
AcDbEntity
  8
0
  6
Continuous
 62
     7
370
    25
100
AcDbPolyline
 90
       12
 70
   128
 43
0.0
 10
539.4153351493
 20
-166.8390957203
 10
539.3375304538
 20
-164.5400518252
 10
539.1045729561
 20
-162.3443310232
 10
538.7178297436
 20
-160.264818677
 10
538.1795703791
 20
-158.3137181919
 10
537.4929535826
 20
-156.5024794015
 10
536.6620086945
 20
-154.8417313752
 10
535.6916120299
 20
-153.3412200427
 10
534.5874582622
 20
-152.0097510011
 10
533.3560270047
 20
-150.8551378404
 10
532.0045447858
 20
-149.8841562895
 10
531.6473070917
 20
-149.6699154777
  0
LWPOLYLINE
  5
AD
330
1F
100
AcDbEntity
  8
0
  6
Continuous
 62
     7
370
    25
100
AcDbPolyline
 90
       32
 70
   128
 43
0.0
 10
494.1503546179
 20
-214.6235801562
 10
495.2567190691
 20
-215.1909911795
 10
496.8238521415
 20
-215.7787262551
 10
498.4853195809
 20
-216.169095508
 10
500.2313712357
 20
-216.3598080963
 10
502.0517605805
 20
-216.3497448427
 10
503.9358048469
 20
-216.1389648023
 10
505.8724477139
 20
-215.7287049162
 10
507.850324191
 20
-215.1213727526
 10
509.8578273127
 20
-214.320532378
 10
511.8831762524
 20
-213.3308834423
 10
513.9144854572
 20
-212.158233599
 10
515.9398343969
 20
-210.8094644235
 10
517.9473375186
 20
-209.2924910298
 10
519.9252139958
 20
-207.6162156208
 10
521.8618568627
 20
-205.7904752473
 10
523.7459011291
 20
-203.8259840797
 10
525.566290474
 20
-201.7342705334
 10
527.3123421288
 20
-199.5276096151
 10
528.9738095681
 20
-197.2189508886
 10
530.5409426405
 20
-194.8218424813
 10
532.0045447858
 20
-192.3503515784
 10
533.3560270047
 20
-189.8189818714
 10
534.5874582622
 20
-187.2425884442
 10
535.6916120299
 20
-184.636290598
 10
536.6620086945
 20
-182.0153831248
 10
537.4929535826
 20
-179.3952465518
 10
538.1795703791
 20
-176.7912568824
 10
538.7178297436
 20
-174.2186953633
 10
539.1045729561
 20
-171.6926588084
 10
539.3375304538
 20
-169.2279710047
 10
539.4153351493
 20
-166.8390957203
  0
LWPOLYLINE
  5
AE
330
1F
100
AcDbEntity
  8
0
  6
Continuous
 62
     7
370
    25
100
AcDbPolyline
 90
       78
 70
   128
 43
0.0
 10
351.6784847443
 20
-62.134755379
 10
351.6008410414
 20
-59.983241468
 10
351.3684266387
 20
-57.9356910384
 10
350.9827882157
 20
-56.0057302003
 10
350.4464921325
 20
-54.2062025248
 10
349.763107351
 20
-52.5490835717
 10
348.9371816843
 20
-51.0454011942
 10
347.9742115313
 20
-49.7051621503
 10
346.8806052995
 20
-48.5372855099
 10
345.6636407581
 20
-47.5495432993
 10
344.3314166051
 20
-46.7485087798
 10
342.8927985727
 20
-46.1395127042
 10
341.3573604263
 20
-45.7266078408
 10
339.7353202536
 20
-45.5125420033
 10
338.0374724642
 20
-45.4987397646
 10
336.2751159552
 20
-45.6852929762
 10
334.4599789182
 20
-46.0709601574
 10
332.6041407909
 20
-46.6531747567
 10
330.7199518696
 20
-47.428062232
 10
328.8199511209
 20
-48.390465835
 10
326.9167827363
 20
-49.5339809284
 10
325.0231119873
 20
-50.8509976081
 10
323.1515409404
 20
-52.3327513453
 10
321.314524592
 20
-53.9693813133
 10
319.5242879829
 20
-55.7499960097
 10
317.7927448424
 20
-57.6627457376
 10
316.1314183043
 20
-59.694901463
 10
314.5513642227
 20
-61.832939525
 10
313.0630975968
 20
-64.0626316328
 10
311.6765225955
 20
-66.3691395535
 10
310.4008666466
 20
-68.7371138574
 10
309.24461903
 20
-71.1507960661
 10
308.2154743828
 20
-73.5941235228
 10
307.3202814928
 20
-76.0508362864
 10
306.564997721
 20
-78.5045853388
 10
305.9546493564
 20
-80.9390413848
 10
305.4932981665
 20
-83.3380035212
 10
305.1840143675
 20
-85.6855070508
 10
305.0288561919
 20
-87.9659297248
 10
305.0288561919
 20
-90.1640957065
 10
305.1840143675
 20
-92.2653765642
 10
305.4932981665
 20
-94.2557886202
 10
305.9546493564
 20
-96.1220860109
 10
306.564997721
 20
-97.851848835
 10
307.3202814928
 20
-99.4335658062
 10
308.2154743828
 20
-100.8567108592
 10
309.24461903
 20
-102.1118131983
 10
310.4008666466
 20
-103.1905203246
 10
311.6765225955
 20
-104.0856536201
 10
313.0630975968
 20
-104.7912561205
 10
314.5513642227
 20
-105.3026321575
 10
316.1314183043
 20
-105.616378608
 10
317.7927448424
 20
-105.730407541
 10
319.5242879829
 20
-105.643960113
 10
321.314524592
 20
-105.3576116171
 10
323.1515409404
 20
-104.8732676555
 10
325.0231119873
 20
-104.1941514573
 10
326.9167827363
 20
-103.3247824287
 10
328.8199511209
 20
-102.2709460772
 10
330.7199518696
 20
-101.0396555098
 10
332.6041407909
 20
-99.6391047621
 10
334.4599789182
 20
-98.0786142683
 10
336.2751159552
 20
-96.3685688351
 10
338.0374724642
 20
-94.5203485328
 10
339.7353202536
 20
-92.5462529626
 10
341.3573604263
 20
-90.4594194046
 10
342.8927985727
 20
-88.2737353921
 10
344.3314166051
 20
-86.0037462914
 10
345.6636407581
 20
-83.6645585055
 10
346.8806052995
 20
-81.2717389432
 10
347.9742115313
 20
-78.8412114239
 10
348.9371816843
 20
-76.3891507072
 10
349.763107351
 20
-73.9318748526
 10
350.4464921325
 20
-71.4857366256
 10
350.9827882157
 20
-69.0670146723
 10
351.3684266387
 20
-66.6918051885
 10
351.6008410414
 20
-64.3759148012
 10
351.6784847443
 20
-62.134755379
  0
LWPOLYLINE
  5
AF
330
1F
100
AcDbEntity
  8
0
  6
Continuous
 62
     7
370
    25
100
AcDbPolyline
 90
       83
 70
   128
 43
0.0
 10
539.0617817587
 20
-91.1172433487
 10
538.9839770632
 20
-88.7283680643
 10
538.7510195656
 20
-86.2636802606
 10
538.364276353
 20
-83.7376437057
 10
537.8260169885
 20
-81.1650821866
 10
537.139400192
 20
-78.5610925172
 10
536.308455304
 20
-75.9409559442
 10
535.3380586393
 20
-73.320048471
 10
534.2339048716
 20
-70.7137506248
 10
533.0024736141
 20
-68.1373571976
 10
531.6509913952
 20
-65.6059874906
 10
530.1873892499
 20
-63.1344965878
 10
528.6202561775
 20
-60.7373881804
 10
526.9587887382
 20
-58.4287294539
 10
525.2127370834
 20
-56.2220685356
 10
523.3923477385
 20
-54.1303549893
 10
521.5083034721
 20
-52.1658638217
 10
519.5716606052
 20
-50.3401234482
 10
517.593784128
 20
-48.6638480393
 10
515.5862810063
 20
-47.1468746455
 10
513.5609320666
 20
-45.79810547
 10
511.5296228618
 20
-44.6254556267
 10
509.5042739221
 20
-43.635806691
 10
507.4967708004
 20
-42.8349663165
 10
505.5188943233
 20
-42.2276341528
 10
503.5822514563
 20
-41.8173742667
 10
501.6982071899
 20
-41.6065942263
 10
499.8778178451
 20
-41.5965309727
 10
498.1317661903
 20
-41.787243561
 10
496.4702987509
 20
-42.1776128139
 10
494.9031656785
 20
-42.7653478895
 10
493.4395635332
 20
-43.5469997246
 10
492.0880813143
 20
-44.5179812755
 10
490.8566500569
 20
-45.6725944362
 10
489.7524962891
 20
-47.0040634777
 10
488.7820996245
 20
-48.5045748103
 10
487.9511547364
 20
-50.1653228366
 10
487.2645379399
 20
-51.976561627
 10
486.7262785754
 20
-53.9276621121
 10
486.3395353629
 20
-56.0071744583
 10
486.1065778652
 20
-58.2028952603
 10
486.0287731697
 20
-60.5019391554
 10
486.1065778652
 20
-62.8908144398
 10
486.3395353629
 20
-65.3555022435
 10
486.7262785754
 20
-67.8815387984
 10
487.2645379399
 20
-70.4541003175
 10
487.9511547364
 20
-73.0580899869
 10
488.7820996245
 20
-75.6782265599
 10
489.7524962891
 20
-78.2991340331
 10
490.8566500569
 20
-80.9054318793
 10
492.0880813143
 20
-83.4818253065
 10
493.4395635332
 20
-86.0131950135
 10
494.9031656785
 20
-88.4846859164
 10
496.4702987509
 20
-90.8817943237
 10
498.1317661903
 20
-93.1904530502
 10
499.8778178451
 20
-95.3971139685
 10
501.6982071899
 20
-97.4888275148
 10
503.5822514563
 20
-99.4533186824
 10
505.5188943233
 20
-101.2790590559
 10
507.4967708004
 20
-102.9553344649
 10
509.5042739221
 20
-104.4723078586
 10
511.5296228618
 20
-105.8210770341
 10
513.5609320666
 20
-106.9937268774
 10
515.5862810063
 20
-107.9833758131
 10
517.593784128
 20
-108.7842161876
 10
519.5716606052
 20
-109.3915483513
 10
521.5083034721
 20
-109.8018082374
 10
523.3923477385
 20
-110.0125882778
 10
525.2127370834
 20
-110.0226515314
 10
526.9587887382
 20
-109.8319389431
 10
528.6202561775
 20
-109.4415696902
 10
530.1873892499
 20
-108.8538346146
 10
531.6509913952
 20
-108.0721827795
 10
533.0024736141
 20
-107.1012012286
 10
534.2339048716
 20
-105.9465880679
 10
535.3380586393
 20
-104.6151190264
 10
536.308455304
 20
-103.1146076939
 10
537.139400192
 20
-101.4538596675
 10
537.8260169885
 20
-99.6426208771
 10
538.364276353
 20
-97.6915203921
 10
538.7510195656
 20
-95.6120080459
 10
538.9839770632
 20
-93.4162872438
 10
539.0617817587
 20
-91.1172433487
  0
LWPOLYLINE
  5
B0
330
1F
100
AcDbEntity
  8
0
  6
Continuous
 62
     7
370
    25
100
AcDbPolyline
 90
       78
 70
   128
 43
0.0
 10
535.8798012434
 20
-89.2803250971
 10
535.8021575405
 20
-87.0391656749
 10
535.5697431378
 20
-84.7232752877
 10
535.1841047148
 20
-82.3480658038
 10
534.6478086316
 20
-79.9293438506
 10
533.9644238501
 20
-77.4832056235
 10
533.1384981834
 20
-75.025929769
 10
532.1755280304
 20
-72.5738690523
 10
531.0819217986
 20
-70.143341533
 10
529.8649572572
 20
-67.7505219707
 10
528.5327331042
 20
-65.4113341848
 10
527.0941150718
 20
-63.1413450841
 10
525.5586769254
 20
-60.9556610715
 10
523.9366367527
 20
-58.8688275136
 10
522.2387889633
 20
-56.8947319433
 10
520.4764324543
 20
-55.046511641
 10
518.6612954173
 20
-53.3364662078
 10
516.80545729
 20
-51.775975714
 10
514.9212683687
 20
-50.3754249664
 10
513.02126762
 20
-49.144134399
 10
511.1180992354
 20
-48.0902980475
 10
509.2244284864
 20
-47.2209290189
 10
507.3528574395
 20
-46.5418128207
 10
505.5158410911
 20
-46.057468859
 10
503.725604482
 20
-45.7711203632
 10
501.9940613415
 20
-45.6846729351
 10
500.3327348034
 20
-45.7987018682
 10
498.7526807218
 20
-46.1124483186
 10
497.2644140959
 20
-46.6238243556
 10
495.8778390946
 20
-47.329426856
 10
494.6021831457
 20
-48.2245601516
 10
493.4459355291
 20
-49.3032672779
 10
492.4167908818
 20
-50.558369617
 10
491.5215979919
 20
-51.9815146699
 10
490.7663142201
 20
-53.5632316412
 10
490.1559658555
 20
-55.2929944652
 10
489.6946146656
 20
-57.1592918559
 10
489.3853308666
 20
-59.149703912
 10
489.230172691
 20
-61.2509847696
 10
489.230172691
 20
-63.4491507514
 10
489.3853308666
 20
-65.7295734254
 10
489.6946146656
 20
-68.0770769549
 10
490.1559658555
 20
-70.4760390913
 10
490.7663142201
 20
-72.9104951374
 10
491.5215979919
 20
-75.3642441897
 10
492.4167908818
 20
-77.8209569533
 10
493.4459355291
 20
-80.2642844101
 10
494.6021831457
 20
-82.6779666188
 10
495.8778390946
 20
-85.0459409226
 10
497.2644140959
 20
-87.3524488433
 10
498.7526807218
 20
-89.5821409512
 10
500.3327348034
 20
-91.7201790131
 10
501.9940613415
 20
-93.7523347385
 10
503.725604482
 20
-95.6650844664
 10
505.5158410911
 20
-97.4456991629
 10
507.3528574395
 20
-99.0823291309
 10
509.2244284864
 20
-100.5640828681
 10
511.1180992354
 20
-101.8810995477
 10
513.02126762
 20
-103.0246146412
 10
514.9212683687
 20
-103.9870182441
 10
516.80545729
 20
-104.7619057194
 10
518.6612954173
 20
-105.3441203187
 10
520.4764324543
 20
-105.7297874999
 10
522.2387889633
 20
-105.9163407116
 10
523.9366367527
 20
-105.9025384729
 10
525.5586769254
 20
-105.6884726354
 10
527.0941150718
 20
-105.2755677719
 10
528.5327331042
 20
-104.6665716963
 10
529.8649572572
 20
-103.8655371769
 10
531.0819217986
 20
-102.8777949663
 10
532.1755280304
 20
-101.7099183258
 10
533.1384981834
 20
-100.369679282
 10
533.9644238501
 20
-98.8659969044
 10
534.6478086316
 20
-97.2088779513
 10
535.1841047148
 20
-95.4093502758
 10
535.5697431378
 20
-93.4793894378
 10
535.8021575405
 20
-91.4318390081
 10
535.8798012434
 20
-89.2803250971
  0
LINE
  5
B1
330
1F
100
AcDbEntity
  8
0
  6
Continuous
 62
     7
370
    25
100
AcDbLine
 10
-120.2655842069
 20
145.1670163062
 30
0.0
 11
-250.7655842069
 21
145.1670163062
 31
0.0
  0
LINE
  5
B2
330
1F
100
AcDbEntity
  8
0
  6
Continuous
 62
     7
370
    25
100
AcDbLine
 10
10.2344157931
 20
145.1670163062
 30
0.0
 11
-120.2655842069
 21
145.1670163062
 31
0.0
  0
LINE
  5
B3
330
1F
100
AcDbEntity
  8
0
  6
Continuous
 62
     7
370
    25
100
AcDbLine
 10
-120.2655842069
 20
70.1670163062
 30
0.0
 11
10.2344157931
 21
70.1670163062
 31
0.0
  0
LINE
  5
B4
330
1F
100
AcDbEntity
  8
0
  6
Continuous
 62
     7
370
    25
100
AcDbLine
 10
-250.7655842069
 20
70.1670163062
 30
0.0
 11
-120.2655842069
 21
70.1670163062
 31
0.0
  0
CIRCLE
  5
B5
330
1F
100
AcDbEntity
  8
0
  6
Continuous
 62
     7
370
    25
100
AcDbCircle
 10
-120.2655842069
 20
107.6670163062
 30
0.0
 40
33.0
  0
CIRCLE
  5
B6
330
1F
100
AcDbEntity
  8
0
  6
Continuous
 62
     7
370
    25
100
AcDbCircle
 10
-120.2655842069
 20
107.6670163062
 30
0.0
 40
37.50000000000001
  0
LINE
  5
B7
330
1F
100
AcDbEntity
  8
0
  6
Continuous
 62
     7
370
    25
100
AcDbLine
 10
-250.7655842069
 20
107.6670163062
 30
0.0
 11
-250.7655842069
 21
145.1670163062
 31
0.0
  0
LINE
  5
B8
330
1F
100
AcDbEntity
  8
0
  6
Continuous
 62
     7
370
    25
100
AcDbLine
 10
-250.7655842069
 20
70.1670163062
 30
0.0
 11
-250.7655842069
 21
107.6670163062
 31
0.0
  0
LINE
  5
B9
330
1F
100
AcDbEntity
  8
0
  6
Continuous
 62
     7
370
    25
100
AcDbLine
 10
10.2344157931
 20
107.6670163062
 30
0.0
 11
10.2344157931
 21
145.1670163062
 31
0.0
  0
LINE
  5
BA
330
1F
100
AcDbEntity
  8
0
  6
Continuous
 62
     7
370
    25
100
AcDbLine
 10
10.2344157931
 20
70.1670163062
 30
0.0
 11
10.2344157931
 21
107.6670163062
 31
0.0
  0
INSERT
  5
C6
330
1F
100
AcDbEntity
  8
FORMAT
100
AcDbBlockReference
  2
SW_CENTERMARKSYMBOL_1
 10
-120.2655842069
 20
107.6670163062
 30
0.0
  0
LINE
  5
C7
330
1F
100
AcDbEntity
  8
0
  6
Continuous
 62
     7
370
    25
100
AcDbLine
 10
69.7049325648
 20
30.1828329959
 30
0.0
 11
69.7049325648
 21
-230.8171670041
 31
0.0
  0
LINE
  5
C8
330
1F
100
AcDbEntity
  8
0
  6
Continuous
 62
     7
370
    25
100
AcDbLine
 10
144.7049325648
 20
-62.8171670041
 30
0.0
 11
144.7049325648
 21
30.1828329959
 31
0.0
  0
LINE
  5
C9
330
1F
100
AcDbEntity
  8
0
  6
Continuous
 62
     7
370
    25
100
AcDbLine
 10
144.7049325648
 20
-230.8171670041
 30
0.0
 11
144.7049325648
 21
-137.8171670041
 31
0.0
  0
LINE
  5
CA
330
1F
100
AcDbEntity
  8
0
  6
Continuous
 62
     7
370
    25
100
AcDbLine
 10
144.7049325648
 20
-137.8171670041
 30
0.0
 11
237.2049325648
 21
-137.8171670041
 31
0.0
  0
LINE
  5
CB
330
1F
100
AcDbEntity
  8
0
  6
Continuous
 62
     7
370
    25
100
AcDbLine
 10
237.2049325648
 20
-62.8171670041
 30
0.0
 11
144.7049325648
 21
-62.8171670041
 31
0.0
  0
LINE
  5
CC
330
1F
100
AcDbEntity
  8
0
  6
Continuous
 62
     7
370
    25
100
AcDbLine
 10
107.2049325648
 20
-100.3171670041
 30
0.0
 11
144.7049325648
 21
-137.8171670041
 31
0.0
  0
LINE
  5
CD
330
1F
100
AcDbEntity
  8
0
  6
Continuous
 62
     7
370
    25
100
AcDbLine
 10
144.7049325648
 20
-62.8171670041
 30
0.0
 11
107.2049325648
 21
-100.3171670041
 31
0.0
  0
LINE
  5
CE
330
1F
100
AcDbEntity
  8
0
  6
Continuous
 62
     7
370
    25
100
AcDbLine
 10
144.7049325648
 20
-230.8171670041
 30
0.0
 11
69.7049325648
 21
-230.8171670041
 31
0.0
  0
LINE
  5
CF
330
1F
100
AcDbEntity
  8
0
  6
Continuous
 62
     7
370
    25
100
AcDbLine
 10
144.7049325648
 20
30.1828329959
 30
0.0
 11
69.7049325648
 21
30.1828329959
 31
0.0
  0
LINE
  5
D0
330
1F
100
AcDbEntity
  8
0
  6
Continuous
 62
     7
370
    25
100
AcDbLine
 10
237.2049325648
 20
-62.8171670041
 30
0.0
 11
237.2049325648
 21
-137.8171670041
 31
0.0
  0
ENDSEC
  0
SECTION
  2
OBJECTS
  0
DICTIONARY
  5
C
330
0
100
AcDbDictionary
281
     1
  3
ACAD_GROUP
350
D
  3
ACAD_LAYOUT
350
1A
  3
ACAD_MLINESTYLE
350
17
  3
ACAD_PLOTSETTINGS
350
19
  3
ACAD_PLOTSTYLENAME
350
E
  3
ACAD_SCALELIST
350
47
  3
DWGPROPS
350
D1
  0
DICTIONARY
  5
D
102
{ACAD_REACTORS
330
C
102
}
330
C
100
AcDbDictionary
281
     1
  0
DICTIONARY
  5
1A
102
{ACAD_REACTORS
330
C
102
}
330
C
100
AcDbDictionary
281
     1
  3
Layout1
350
1E
  3
Layout2
350
26
  3
Model
350
22
  0
DICTIONARY
  5
17
102
{ACAD_REACTORS
330
C
102
}
330
C
100
AcDbDictionary
281
     1
  3
Standard
350
18
  0
DICTIONARY
  5
19
102
{ACAD_REACTORS
330
C
102
}
330
C
100
AcDbDictionary
281
     1
  0
ACDBDICTIONARYWDFLT
  5
E
102
{ACAD_REACTORS
330
C
102
}
330
C
100
AcDbDictionary
281
     1
  3
Normal
350
F
100
AcDbDictionaryWithDefault
340
F
  0
DICTIONARY
  5
47
102
{ACAD_REACTORS
330
C
102
}
330
C
100
AcDbDictionary
281
     1
  3
A0
350
48
  3
A1
350
49
  3
A2
350
4A
  3
A3
350
4B
  3
A4
350
4C
  3
A5
350
4D
  3
A6
350
4E
  3
A7
350
4F
  3
A8
350
50
  3
A9
350
51
  3
B0
350
52
  3
B1
350
53
  3
B2
350
54
  3
B3
350
55
  3
B4
350
56
  3
B5
350
57
  3
B6
350
58
  3
B7
350
59
  3
B8
350
5A
  3
B9
350
5B
  3
C0
350
5C
  3
C1
350
5D
  3
C2
350
5E
  3
C3
350
5F
  3
C4
350
60
  3
C5
350
61
  3
C6
350
62
  3
C7
350
63
  3
C8
350
64
  3
C9
350
65
  3
D0
350
66
  3
D1
350
67
  3
D2
350
68
  0
XRECORD
  5
D1
102
{ACAD_REACTORS
330
C
102
}
330
C
100
AcDbXrecord
280
     1
  1
DWGPROPS COOKIE
  2

  3

  4

  6

  7

  8
b.kav
  9

300
=
301
=
302
=
303
=
304
=
305
=
306
=
307
=
308
=
309
=
 40
0.0
 41
2459935.575490394
 42
2459935.575490567
  1

 90
        0
  0
LAYOUT
  5
1E
102
{ACAD_REACTORS
330
1A
102
}
330
1A
100
AcDbPlotSettings
  1

  2
none_device
  4

  6

 40
0.0
 41
0.0
 42
0.0
 43
0.0
 44
0.0
 45
0.0
 46
0.0
 47
0.0
 48
0.0
 49
0.0
140
0.0
141
0.0
142
1.0
143
1.0
 70
   688
 72
     1
 73
     0
 74
     5
  7

 75
    16
147
1.0
148
0.0
149
0.0
100
AcDbLayout
  1
Layout1
 70
     1
 71
     1
 10
0.0
 20
0.0
 11
420.0
 21
297.0
 12
0.0
 22
0.0
 32
0.0
 14
1.0000000000E+20
 24
1.0000000000E+20
 34
1.0000000000E+20
 15
-1.0000000000E+20
 25
-1.0000000000E+20
 35
-1.0000000000E+20
146
0.0
 13
0.0
 23
0.0
 33
0.0
 16
1.0
 26
0.0
 36
0.0
 17
0.0
 27
1.0
 37
0.0
 76
     0
330
1B
  0
LAYOUT
  5
26
102
{ACAD_REACTORS
330
1A
102
}
330
1A
100
AcDbPlotSettings
  1

  2
none_device
  4

  6

 40
0.0
 41
0.0
 42
0.0
 43
0.0
 44
0.0
 45
0.0
 46
0.0
 47
0.0
 48
0.0
 49
0.0
140
0.0
141
0.0
142
1.0
143
1.0
 70
   688
 72
     1
 73
     0
 74
     5
  7

 75
    16
147
1.0
148
0.0
149
0.0
100
AcDbLayout
  1
Layout2
 70
     1
 71
     2
 10
0.0
 20
0.0
 11
0.0
 21
0.0
 12
0.0
 22
0.0
 32
0.0
 14
0.0
 24
0.0
 34
0.0
 15
0.0
 25
0.0
 35
0.0
146
0.0
 13
0.0
 23
0.0
 33
0.0
 16
1.0
 26
0.0
 36
0.0
 17
0.0
 27
1.0
 37
0.0
 76
     0
330
23
  0
LAYOUT
  5
22
102
{ACAD_REACTORS
330
1A
102
}
330
1A
100
AcDbPlotSettings
  1

  2
none_device
  4
Letter_(8.50_x_11.00_Inches)
  6

 40
6.35
 41
6.35
 42
6.35000508
 43
6.35000508
 44
215.9
 45
279.4
 46
0.0
 47
0.0
 48
0.0
 49
0.0
140
0.0
141
0.0
142
1.0
143
1.0
 70
  1712
 72
     1
 73
     0
 74
     0
  7

 75
     0
147
1.0
148
0.0
149
0.0
100
AcDbLayout
  1
Model
 70
     1
 71
     0
 10
0.0
 20
0.0
 11
279.4
 21
215.9
 12
0.0
 22
0.0
 32
0.0
 14
0.0
 24
0.0
 34
0.0
 15
279.4
 25
215.9
 35
0.0
146
0.0
 13
0.0
 23
0.0
 33
0.0
 16
1.0
 26
0.0
 36
0.0
 17
0.0
 27
1.0
 37
0.0
 76
     0
330
1F
331
29
  0
MLINESTYLE
  5
18
102
{ACAD_REACTORS
330
17
102
}
330
17
100
AcDbMlineStyle
  2
Standard
 70
     0
  3

 62
   256
 51
90.0
 52
90.0
 71
     2
 49
0.5
 62
   256
  6
BYLAYER
 49
-0.5
 62
   256
  6
BYLAYER
  0
ACDBPLACEHOLDER
  5
F
102
{ACAD_REACTORS
330
E
102
}
330
E
  0
SCALE
  5
48
102
{ACAD_REACTORS
330
47
102
}
330
47
100
AcDbScale
 70
     0
300
1:1
140
1.0
141
1.0
290
     1
  0
SCALE
  5
49
102
{ACAD_REACTORS
330
47
102
}
330
47
100
AcDbScale
 70
     0
300
1:2
140
1.0
141
2.0
290
     0
  0
SCALE
  5
4A
102
{ACAD_REACTORS
330
47
102
}
330
47
100
AcDbScale
 70
     0
300
1:4
140
1.0
141
4.0
290
     0
  0
SCALE
  5
4B
102
{ACAD_REACTORS
330
47
102
}
330
47
100
AcDbScale
 70
     0
300
1:5
140
1.0
141
5.0
290
     0
  0
SCALE
  5
4C
102
{ACAD_REACTORS
330
47
102
}
330
47
100
AcDbScale
 70
     0
300
1:8
140
1.0
141
8.0
290
     0
  0
SCALE
  5
4D
102
{ACAD_REACTORS
330
47
102
}
330
47
100
AcDbScale
 70
     0
300
1:10
140
1.0
141
10.0
290
     0
  0
SCALE
  5
4E
102
{ACAD_REACTORS
330
47
102
}
330
47
100
AcDbScale
 70
     0
300
1:16
140
1.0
141
16.0
290
     0
  0
SCALE
  5
4F
102
{ACAD_REACTORS
330
47
102
}
330
47
100
AcDbScale
 70
     0
300
1:20
140
1.0
141
20.0
290
     0
  0
SCALE
  5
50
102
{ACAD_REACTORS
330
47
102
}
330
47
100
AcDbScale
 70
     0
300
1:30
140
1.0
141
30.0
290
     0
  0
SCALE
  5
51
102
{ACAD_REACTORS
330
47
102
}
330
47
100
AcDbScale
 70
     0
300
1:40
140
1.0
141
40.0
290
     0
  0
SCALE
  5
52
102
{ACAD_REACTORS
330
47
102
}
330
47
100
AcDbScale
 70
     0
300
1:50
140
1.0
141
50.0
290
     0
  0
SCALE
  5
53
102
{ACAD_REACTORS
330
47
102
}
330
47
100
AcDbScale
 70
     0
300
1:100
140
1.0
141
100.0
290
     0
  0
SCALE
  5
54
102
{ACAD_REACTORS
330
47
102
}
330
47
100
AcDbScale
 70
     0
300
2:1
140
2.0
141
1.0
290
     0
  0
SCALE
  5
55
102
{ACAD_REACTORS
330
47
102
}
330
47
100
AcDbScale
 70
     0
300
4:1
140
4.0
141
1.0
290
     0
  0
SCALE
  5
56
102
{ACAD_REACTORS
330
47
102
}
330
47
100
AcDbScale
 70
     0
300
8:1
140
8.0
141
1.0
290
     0
  0
SCALE
  5
57
102
{ACAD_REACTORS
330
47
102
}
330
47
100
AcDbScale
 70
     0
300
10:1
140
10.0
141
1.0
290
     0
  0
SCALE
  5
58
102
{ACAD_REACTORS
330
47
102
}
330
47
100
AcDbScale
 70
     0
300
100:1
140
100.0
141
1.0
290
     0
  0
SCALE
  5
59
102
{ACAD_REACTORS
330
47
102
}
330
47
100
AcDbScale
 70
     0
300
1/128" = 1'-0"
140
0.0078125
141
12.0
290
     0
  0
SCALE
  5
5A
102
{ACAD_REACTORS
330
47
102
}
330
47
100
AcDbScale
 70
     0
300
1/64" = 1'-0"
140
0.015625
141
12.0
290
     0
  0
SCALE
  5
5B
102
{ACAD_REACTORS
330
47
102
}
330
47
100
AcDbScale
 70
     0
300
1/32" = 1'-0"
140
0.03125
141
12.0
290
     0
  0
SCALE
  5
5C
102
{ACAD_REACTORS
330
47
102
}
330
47
100
AcDbScale
 70
     0
300
1/16" = 1'-0"
140
0.0625
141
12.0
290
     0
  0
SCALE
  5
5D
102
{ACAD_REACTORS
330
47
102
}
330
47
100
AcDbScale
 70
     0
300
3/32" = 1'-0"
140
0.09375
141
12.0
290
     0
  0
SCALE
  5
5E
102
{ACAD_REACTORS
330
47
102
}
330
47
100
AcDbScale
 70
     0
300
1/8" = 1'-0"
140
0.125
141
12.0
290
     0
  0
SCALE
  5
5F
102
{ACAD_REACTORS
330
47
102
}
330
47
100
AcDbScale
 70
     0
300
3/16" = 1'-0"
140
0.1875
141
12.0
290
     0
  0
SCALE
  5
60
102
{ACAD_REACTORS
330
47
102
}
330
47
100
AcDbScale
 70
     0
300
1/4" = 1'-0"
140
0.25
141
12.0
290
     0
  0
SCALE
  5
61
102
{ACAD_REACTORS
330
47
102
}
330
47
100
AcDbScale
 70
     0
300
3/8" = 1'-0"
140
0.375
141
12.0
290
     0
  0
SCALE
  5
62
102
{ACAD_REACTORS
330
47
102
}
330
47
100
AcDbScale
 70
     0
300
1/2" = 1'-0"
140
0.5
141
12.0
290
     0
  0
SCALE
  5
63
102
{ACAD_REACTORS
330
47
102
}
330
47
100
AcDbScale
 70
     0
300
3/4" = 1'-0"
140
0.75
141
12.0
290
     0
  0
SCALE
  5
64
102
{ACAD_REACTORS
330
47
102
}
330
47
100
AcDbScale
 70
     0
300
1" = 1'-0"
140
1.0
141
12.0
290
     0
  0
SCALE
  5
65
102
{ACAD_REACTORS
330
47
102
}
330
47
100
AcDbScale
 70
     0
300
1-1/2" = 1'-0"
140
1.5
141
12.0
290
     0
  0
SCALE
  5
66
102
{ACAD_REACTORS
330
47
102
}
330
47
100
AcDbScale
 70
     0
300
3" = 1'-0"
140
3.0
141
12.0
290
     0
  0
SCALE
  5
67
102
{ACAD_REACTORS
330
47
102
}
330
47
100
AcDbScale
 70
     0
300
6" = 1'-0"
140
6.0
141
12.0
290
     0
  0
SCALE
  5
68
102
{ACAD_REACTORS
330
47
102
}
330
47
100
AcDbScale
 70
     0
300
1'-0" = 1'-0"
140
12.0
141
12.0
290
     0
  0
ENDSEC
  0
EOF
